ISO-10303-21;
HEADER;
/* Generated by software containing ST-Developer
 * from STEP Tools, Inc. (www.steptools.com) 
 */

FILE_DESCRIPTION(
/* description */ ('Anschlagpuffer 20x24'),
/* implementation_level */ '2;1');

FILE_NAME(
/* name */ 
'T:\\Produktinformationen\\MT\\B45\\3D-Files B45\\Anschlagpuffer\\4085
10165 Anschlagpuffer 20x24.stp',
/* time_stamp */ '2019-10-23T15:50:56+02:00',
/* author */ ('wheldmann'),
/* organization */ (''),
/* preprocessor_version */ 'ST-DEVELOPER v17.2',
/* originating_system */ 'Autodesk Inventor 2019',
/* authorisation */ '');

FILE_SCHEMA (('AUTOMOTIVE_DESIGN { 1 0 10303 214 3 1 1 }'));
ENDSEC;

DATA;
#10=MECHANICAL_DESIGN_GEOMETRIC_PRESENTATION_REPRESENTATION('',(#168,#169,
#170,#171,#172,#173,#174,#175,#176,#177,#178),#387);
#11=SHAPE_REPRESENTATION_RELATIONSHIP('SRR','None',#394,#12);
#12=ADVANCED_BREP_SHAPE_REPRESENTATION('',(#13),#386);
#13=MANIFOLD_SOLID_BREP('Volumenk\X\F6rper1',#189);
#14=TOROIDAL_SURFACE('',#228,9.51221468174493,0.5);
#15=SPHERICAL_SURFACE('',#226,2.99999999999991);
#16=(
BOUNDED_SURFACE()
B_SPLINE_SURFACE(2,2,((#325,#326,#327,#328,#329,#330,#331,#332,#333),(#334,
#335,#336,#337,#338,#339,#340,#341,#342),(#343,#344,#345,#346,#347,#348,
#349,#350,#351)),.UNSPECIFIED.,.F.,.T.,.F.)
B_SPLINE_SURFACE_WITH_KNOTS((3,3),(3,2,2,2,3),(-0.687861536664122,0.0253758576375668),
(-3.14159265358979,-1.5707963267949,0.,1.5707963267949,3.14159265358979),
 .UNSPECIFIED.)
GEOMETRIC_REPRESENTATION_ITEM()
RATIONAL_B_SPLINE_SURFACE(((1.,0.707106781186548,1.,0.707106781186548,1.,
0.707106781186548,1.,0.707106781186548,1.),(0.937082617129946,0.662617473104622,
0.937082617129946,0.662617473104622,0.937082617129946,0.662617473104622,
0.937082617129946,0.662617473104622,0.937082617129946),(1.,0.707106781186548,
1.,0.707106781186548,1.,0.707106781186548,1.,0.707106781186548,1.)))
REPRESENTATION_ITEM('')
SURFACE()
);
#17=FACE_BOUND('',#39,.T.);
#18=FACE_BOUND('',#45,.T.);
#19=FACE_BOUND('',#47,.T.);
#20=PLANE('',#217);
#21=PLANE('',#218);
#22=PLANE('',#237);
#23=PLANE('',#238);
#24=CONICAL_SURFACE('',#214,3.,0.785398163397448);
#25=FACE_OUTER_BOUND('',#35,.T.);
#26=FACE_OUTER_BOUND('',#36,.T.);
#27=FACE_OUTER_BOUND('',#37,.T.);
#28=FACE_OUTER_BOUND('',#38,.T.);
#29=FACE_OUTER_BOUND('',#40,.T.);
#30=FACE_OUTER_BOUND('',#41,.T.);
#31=FACE_OUTER_BOUND('',#42,.T.);
#32=FACE_OUTER_BOUND('',#43,.T.);
#33=FACE_OUTER_BOUND('',#44,.T.);
#34=FACE_OUTER_BOUND('',#46,.T.);
#35=EDGE_LOOP('',(#118,#119,#120,#121,#122,#123));
#36=EDGE_LOOP('',(#124,#125,#126,#127,#128,#129));
#37=EDGE_LOOP('',(#130,#131));
#38=EDGE_LOOP('',(#132));
#39=EDGE_LOOP('',(#133,#134));
#40=EDGE_LOOP('',(#135,#136,#137,#138,#139,#140,#141));
#41=EDGE_LOOP('',(#142,#143,#144,#145));
#42=EDGE_LOOP('',(#146,#147,#148,#149,#150,#151,#152));
#43=EDGE_LOOP('',(#153,#154,#155,#156,#157,#158));
#44=EDGE_LOOP('',(#159,#160));
#45=EDGE_LOOP('',(#161));
#46=EDGE_LOOP('',(#162,#163));
#47=EDGE_LOOP('',(#164,#165));
#48=LINE('',#311,#51);
#49=LINE('',#317,#52);
#50=LINE('',#378,#53);
#51=VECTOR('',#247,3.);
#52=VECTOR('',#254,3.);
#53=VECTOR('',#295,9.5);
#54=CIRCLE('',#210,3.);
#55=CIRCLE('',#211,3.);
#56=CIRCLE('',#212,3.);
#57=CIRCLE('',#213,3.);
#58=CIRCLE('',#215,2.25);
#59=CIRCLE('',#216,2.25);
#60=CIRCLE('',#219,9.);
#61=CIRCLE('',#220,2.29158570536794);
#62=CIRCLE('',#221,33.9999999999998);
#63=CIRCLE('',#222,10.0120537068456);
#64=CIRCLE('',#223,10.0120537068456);
#65=CIRCLE('',#224,10.0120537068456);
#66=CIRCLE('',#225,2.29158570536794);
#67=CIRCLE('',#227,2.99999999999991);
#68=CIRCLE('',#229,9.51221468174493);
#69=CIRCLE('',#230,9.51221468174493);
#70=CIRCLE('',#231,0.5);
#71=CIRCLE('',#233,9.5);
#72=CIRCLE('',#234,9.5);
#73=CIRCLE('',#235,9.5);
#74=CIRCLE('',#236,9.5);
#75=VERTEX_POINT('',#306);
#76=VERTEX_POINT('',#307);
#77=VERTEX_POINT('',#310);
#78=VERTEX_POINT('',#312);
#79=VERTEX_POINT('',#316);
#80=VERTEX_POINT('',#318);
#81=VERTEX_POINT('',#323);
#82=VERTEX_POINT('',#352);
#83=VERTEX_POINT('',#353);
#84=VERTEX_POINT('',#355);
#85=VERTEX_POINT('',#357);
#86=VERTEX_POINT('',#359);
#87=VERTEX_POINT('',#364);
#88=VERTEX_POINT('',#367);
#89=VERTEX_POINT('',#368);
#90=VERTEX_POINT('',#373);
#91=VERTEX_POINT('',#374);
#92=VERTEX_POINT('',#377);
#93=VERTEX_POINT('',#379);
#94=EDGE_CURVE('',#75,#76,#54,.T.);
#95=EDGE_CURVE('',#76,#75,#55,.T.);
#96=EDGE_CURVE('',#76,#77,#48,.T.);
#97=EDGE_CURVE('',#77,#78,#56,.T.);
#98=EDGE_CURVE('',#78,#77,#57,.T.);
#99=EDGE_CURVE('',#77,#79,#49,.T.);
#100=EDGE_CURVE('',#79,#80,#58,.T.);
#101=EDGE_CURVE('',#80,#79,#59,.T.);
#102=EDGE_CURVE('',#81,#81,#60,.T.);
#103=EDGE_CURVE('',#82,#83,#61,.T.);
#104=EDGE_CURVE('',#83,#84,#62,.T.);
#105=EDGE_CURVE('',#84,#85,#63,.T.);
#106=EDGE_CURVE('',#85,#86,#64,.T.);
#107=EDGE_CURVE('',#86,#84,#65,.T.);
#108=EDGE_CURVE('',#83,#82,#66,.T.);
#109=EDGE_CURVE('',#87,#83,#67,.T.);
#110=EDGE_CURVE('',#88,#89,#68,.T.);
#111=EDGE_CURVE('',#89,#88,#69,.T.);
#112=EDGE_CURVE('',#89,#86,#70,.T.);
#113=EDGE_CURVE('',#90,#91,#71,.T.);
#114=EDGE_CURVE('',#91,#90,#72,.T.);
#115=EDGE_CURVE('',#91,#92,#50,.T.);
#116=EDGE_CURVE('',#92,#93,#73,.T.);
#117=EDGE_CURVE('',#93,#92,#74,.T.);
#118=ORIENTED_EDGE('',*,*,#94,.F.);
#119=ORIENTED_EDGE('',*,*,#95,.F.);
#120=ORIENTED_EDGE('',*,*,#96,.T.);
#121=ORIENTED_EDGE('',*,*,#97,.T.);
#122=ORIENTED_EDGE('',*,*,#98,.T.);
#123=ORIENTED_EDGE('',*,*,#96,.F.);
#124=ORIENTED_EDGE('',*,*,#98,.F.);
#125=ORIENTED_EDGE('',*,*,#97,.F.);
#126=ORIENTED_EDGE('',*,*,#99,.T.);
#127=ORIENTED_EDGE('',*,*,#100,.T.);
#128=ORIENTED_EDGE('',*,*,#101,.T.);
#129=ORIENTED_EDGE('',*,*,#99,.F.);
#130=ORIENTED_EDGE('',*,*,#101,.F.);
#131=ORIENTED_EDGE('',*,*,#100,.F.);
#132=ORIENTED_EDGE('',*,*,#102,.F.);
#133=ORIENTED_EDGE('',*,*,#94,.T.);
#134=ORIENTED_EDGE('',*,*,#95,.T.);
#135=ORIENTED_EDGE('',*,*,#103,.T.);
#136=ORIENTED_EDGE('',*,*,#104,.T.);
#137=ORIENTED_EDGE('',*,*,#105,.T.);
#138=ORIENTED_EDGE('',*,*,#106,.T.);
#139=ORIENTED_EDGE('',*,*,#107,.T.);
#140=ORIENTED_EDGE('',*,*,#104,.F.);
#141=ORIENTED_EDGE('',*,*,#108,.T.);
#142=ORIENTED_EDGE('',*,*,#103,.F.);
#143=ORIENTED_EDGE('',*,*,#108,.F.);
#144=ORIENTED_EDGE('',*,*,#109,.F.);
#145=ORIENTED_EDGE('',*,*,#109,.T.);
#146=ORIENTED_EDGE('',*,*,#110,.F.);
#147=ORIENTED_EDGE('',*,*,#111,.F.);
#148=ORIENTED_EDGE('',*,*,#112,.T.);
#149=ORIENTED_EDGE('',*,*,#106,.F.);
#150=ORIENTED_EDGE('',*,*,#105,.F.);
#151=ORIENTED_EDGE('',*,*,#107,.F.);
#152=ORIENTED_EDGE('',*,*,#112,.F.);
#153=ORIENTED_EDGE('',*,*,#113,.F.);
#154=ORIENTED_EDGE('',*,*,#114,.F.);
#155=ORIENTED_EDGE('',*,*,#115,.T.);
#156=ORIENTED_EDGE('',*,*,#116,.T.);
#157=ORIENTED_EDGE('',*,*,#117,.T.);
#158=ORIENTED_EDGE('',*,*,#115,.F.);
#159=ORIENTED_EDGE('',*,*,#113,.T.);
#160=ORIENTED_EDGE('',*,*,#114,.T.);
#161=ORIENTED_EDGE('',*,*,#102,.T.);
#162=ORIENTED_EDGE('',*,*,#110,.T.);
#163=ORIENTED_EDGE('',*,*,#111,.T.);
#164=ORIENTED_EDGE('',*,*,#117,.F.);
#165=ORIENTED_EDGE('',*,*,#116,.F.);
#166=CYLINDRICAL_SURFACE('',#209,3.);
#167=CYLINDRICAL_SURFACE('',#232,9.5);
#168=STYLED_ITEM('',(#404),#179);
#169=STYLED_ITEM('',(#404),#180);
#170=STYLED_ITEM('',(#404),#181);
#171=STYLED_ITEM('',(#404),#182);
#172=STYLED_ITEM('',(#405),#183);
#173=STYLED_ITEM('',(#405),#184);
#174=STYLED_ITEM('',(#405),#185);
#175=STYLED_ITEM('',(#405),#186);
#176=STYLED_ITEM('',(#405),#187);
#177=STYLED_ITEM('',(#405),#188);
#178=STYLED_ITEM('',(#403),#13);
#179=ADVANCED_FACE('',(#25),#166,.T.);
#180=ADVANCED_FACE('',(#26),#24,.T.);
#181=ADVANCED_FACE('',(#27),#20,.T.);
#182=ADVANCED_FACE('',(#28,#17),#21,.T.);
#183=ADVANCED_FACE('',(#29),#16,.F.);
#184=ADVANCED_FACE('',(#30),#15,.T.);
#185=ADVANCED_FACE('',(#31),#14,.T.);
#186=ADVANCED_FACE('',(#32),#167,.F.);
#187=ADVANCED_FACE('',(#33,#18),#22,.T.);
#188=ADVANCED_FACE('',(#34,#19),#23,.F.);
#189=CLOSED_SHELL('',(#179,#180,#181,#182,#183,#184,#185,#186,#187,#188));
#190=DERIVED_UNIT_ELEMENT(#192,1.);
#191=DERIVED_UNIT_ELEMENT(#389,3.);
#192=(
MASS_UNIT()
NAMED_UNIT(*)
SI_UNIT($,.GRAM.)
);
#193=DERIVED_UNIT((#190,#191));
#194=MEASURE_REPRESENTATION_ITEM('density measure',
POSITIVE_RATIO_MEASURE(1.),#193);
#195=PROPERTY_DEFINITION_REPRESENTATION(#200,#197);
#196=PROPERTY_DEFINITION_REPRESENTATION(#201,#198);
#197=REPRESENTATION('material name',(#199),#386);
#198=REPRESENTATION('density',(#194),#386);
#199=DESCRIPTIVE_REPRESENTATION_ITEM('Standard','Standard');
#200=PROPERTY_DEFINITION('material property','material name',#396);
#201=PROPERTY_DEFINITION('material property','density of part',#396);
#202=DATE_TIME_ROLE('creation_date');
#203=APPLIED_DATE_AND_TIME_ASSIGNMENT(#204,#202,(#396));
#204=DATE_AND_TIME(#205,#206);
#205=CALENDAR_DATE(2019,23,10);
#206=LOCAL_TIME(12,50,20.,#207);
#207=COORDINATED_UNIVERSAL_TIME_OFFSET(0,0,.BEHIND.);
#208=AXIS2_PLACEMENT_3D('placement',#304,#239,#240);
#209=AXIS2_PLACEMENT_3D('',#305,#241,#242);
#210=AXIS2_PLACEMENT_3D('',#308,#243,#244);
#211=AXIS2_PLACEMENT_3D('',#309,#245,#246);
#212=AXIS2_PLACEMENT_3D('',#313,#248,#249);
#213=AXIS2_PLACEMENT_3D('',#314,#250,#251);
#214=AXIS2_PLACEMENT_3D('',#315,#252,#253);
#215=AXIS2_PLACEMENT_3D('',#319,#255,#256);
#216=AXIS2_PLACEMENT_3D('',#320,#257,#258);
#217=AXIS2_PLACEMENT_3D('',#321,#259,#260);
#218=AXIS2_PLACEMENT_3D('',#322,#261,#262);
#219=AXIS2_PLACEMENT_3D('',#324,#263,#264);
#220=AXIS2_PLACEMENT_3D('',#354,#265,#266);
#221=AXIS2_PLACEMENT_3D('',#356,#267,#268);
#222=AXIS2_PLACEMENT_3D('',#358,#269,#270);
#223=AXIS2_PLACEMENT_3D('',#360,#271,#272);
#224=AXIS2_PLACEMENT_3D('',#361,#273,#274);
#225=AXIS2_PLACEMENT_3D('',#362,#275,#276);
#226=AXIS2_PLACEMENT_3D('',#363,#277,#278);
#227=AXIS2_PLACEMENT_3D('',#365,#279,#280);
#228=AXIS2_PLACEMENT_3D('',#366,#281,#282);
#229=AXIS2_PLACEMENT_3D('',#369,#283,#284);
#230=AXIS2_PLACEMENT_3D('',#370,#285,#286);
#231=AXIS2_PLACEMENT_3D('',#371,#287,#288);
#232=AXIS2_PLACEMENT_3D('',#372,#289,#290);
#233=AXIS2_PLACEMENT_3D('',#375,#291,#292);
#234=AXIS2_PLACEMENT_3D('',#376,#293,#294);
#235=AXIS2_PLACEMENT_3D('',#380,#296,#297);
#236=AXIS2_PLACEMENT_3D('',#381,#298,#299);
#237=AXIS2_PLACEMENT_3D('',#382,#300,#301);
#238=AXIS2_PLACEMENT_3D('',#383,#302,#303);
#239=DIRECTION('axis',(0.,0.,1.));
#240=DIRECTION('refdir',(1.,0.,0.));
#241=DIRECTION('center_axis',(0.,1.,2.22044604925031E-16));
#242=DIRECTION('ref_axis',(-1.,0.,0.));
#243=DIRECTION('center_axis',(0.,1.,2.22044604925031E-16));
#244=DIRECTION('ref_axis',(-1.,0.,0.));
#245=DIRECTION('center_axis',(0.,1.,2.22044604925031E-16));
#246=DIRECTION('ref_axis',(-1.,0.,0.));
#247=DIRECTION('',(0.,-1.,-2.22044604925031E-16));
#248=DIRECTION('center_axis',(0.,1.,2.22044604925031E-16));
#249=DIRECTION('ref_axis',(-1.,0.,0.));
#250=DIRECTION('center_axis',(0.,1.,2.22044604925031E-16));
#251=DIRECTION('ref_axis',(-1.,0.,0.));
#252=DIRECTION('center_axis',(0.,1.,2.22044604925031E-16));
#253=DIRECTION('ref_axis',(-1.,0.,0.));
#254=DIRECTION('',(-0.707106781186547,-0.707106781186548,-7.04136402448281E-17));
#255=DIRECTION('center_axis',(0.,1.,2.22044604925031E-16));
#256=DIRECTION('ref_axis',(-1.,0.,0.));
#257=DIRECTION('center_axis',(0.,1.,2.22044604925031E-16));
#258=DIRECTION('ref_axis',(-1.,0.,0.));
#259=DIRECTION('center_axis',(0.,-1.,-2.22044604925031E-16));
#260=DIRECTION('ref_axis',(1.,0.,0.));
#261=DIRECTION('center_axis',(0.,-1.,-2.22044604925031E-16));
#262=DIRECTION('ref_axis',(1.,0.,0.));
#263=DIRECTION('center_axis',(0.,1.,2.22044604925031E-16));
#264=DIRECTION('ref_axis',(1.,0.,0.));
#265=DIRECTION('center_axis',(0.,-1.,-2.22044604925031E-16));
#266=DIRECTION('ref_axis',(1.,0.,0.));
#267=DIRECTION('center_axis',(1.,-2.24773869413282E-15,1.22464679914733E-16));
#268=DIRECTION('ref_axis',(-1.22464679914735E-16,-1.13536725555301E-15,
1.));
#269=DIRECTION('center_axis',(0.,1.,2.22044604925031E-16));
#270=DIRECTION('ref_axis',(1.,0.,0.));
#271=DIRECTION('center_axis',(0.,1.,2.22044604925031E-16));
#272=DIRECTION('ref_axis',(1.,0.,0.));
#273=DIRECTION('center_axis',(0.,1.,2.22044604925031E-16));
#274=DIRECTION('ref_axis',(1.,0.,0.));
#275=DIRECTION('center_axis',(0.,-1.,-2.22044604925031E-16));
#276=DIRECTION('ref_axis',(1.,0.,0.));
#277=DIRECTION('center_axis',(0.,1.,-2.28847549044389E-17));
#278=DIRECTION('ref_axis',(0.,0.,-1.));
#279=DIRECTION('center_axis',(1.,4.69622472901E-33,-1.22464679914735E-16));
#280=DIRECTION('ref_axis',(1.22464679914735E-16,0.,1.));
#281=DIRECTION('center_axis',(0.,-1.,-2.22044604925031E-16));
#282=DIRECTION('ref_axis',(1.,0.,0.));
#283=DIRECTION('center_axis',(0.,-1.,-2.22044604925031E-16));
#284=DIRECTION('ref_axis',(-1.,0.,0.));
#285=DIRECTION('center_axis',(0.,-1.,-2.22044604925031E-16));
#286=DIRECTION('ref_axis',(-1.,0.,0.));
#287=DIRECTION('center_axis',(1.22464679914735E-16,2.22044604925031E-16,
-1.));
#288=DIRECTION('ref_axis',(-1.,0.,-1.22464679914735E-16));
#289=DIRECTION('center_axis',(0.,-1.,-2.22044604925031E-16));
#290=DIRECTION('ref_axis',(1.,0.,0.));
#291=DIRECTION('center_axis',(0.,-1.,-2.22044604925031E-16));
#292=DIRECTION('ref_axis',(1.,0.,0.));
#293=DIRECTION('center_axis',(0.,-1.,-2.22044604925031E-16));
#294=DIRECTION('ref_axis',(1.,0.,0.));
#295=DIRECTION('',(0.,-1.,-2.22044604925031E-16));
#296=DIRECTION('center_axis',(0.,-1.,-2.22044604925031E-16));
#297=DIRECTION('ref_axis',(1.,0.,0.));
#298=DIRECTION('center_axis',(0.,-1.,-2.22044604925031E-16));
#299=DIRECTION('ref_axis',(1.,0.,0.));
#300=DIRECTION('center_axis',(0.,-1.,-2.22044604925031E-16));
#301=DIRECTION('ref_axis',(1.,0.,0.));
#302=DIRECTION('center_axis',(0.,1.,2.22044604925031E-16));
#303=DIRECTION('ref_axis',(-1.,0.,0.));
#304=CARTESIAN_POINT('',(0.,0.,0.));
#305=CARTESIAN_POINT('Origin',(0.,2.,4.44089209850063E-16));
#306=CARTESIAN_POINT('',(-3.,0.,0.));
#307=CARTESIAN_POINT('',(3.,0.,-3.67394039744205E-16));
#308=CARTESIAN_POINT('Origin',(0.,0.,0.));
#309=CARTESIAN_POINT('Origin',(0.,0.,0.));
#310=CARTESIAN_POINT('',(3.,-17.25,-4.19766347470099E-15));
#311=CARTESIAN_POINT('',(3.,2.,7.6695170105857E-17));
#312=CARTESIAN_POINT('',(-3.,-17.25,-3.83026943495679E-15));
#313=CARTESIAN_POINT('Origin',(0.,-17.25,-3.83026943495679E-15));
#314=CARTESIAN_POINT('Origin',(0.,-17.25,-3.83026943495679E-15));
#315=CARTESIAN_POINT('Origin',(0.,-17.25,-3.83026943495679E-15));
#316=CARTESIAN_POINT('',(2.25,-18.,-4.27234841845872E-15));
#317=CARTESIAN_POINT('',(3.,-17.25,-4.197663474701E-15));
#318=CARTESIAN_POINT('',(-2.25,-18.,-3.99680288865056E-15));
#319=CARTESIAN_POINT('Origin',(0.,-18.,-3.99680288865056E-15));
#320=CARTESIAN_POINT('Origin',(0.,-18.,-3.99680288865056E-15));
#321=CARTESIAN_POINT('Origin',(0.,-18.,2.25));
#322=CARTESIAN_POINT('Origin',(0.,-6.66133814775094E-16,3.));
#323=CARTESIAN_POINT('',(-9.,1.73472347597681E-15,3.85185988877448E-31));
#324=CARTESIAN_POINT('Origin',(0.,1.73472347597681E-15,3.85185988877448E-31));
#325=CARTESIAN_POINT('Ctrl Pts',(1.96542016693436E-14,22.926139187908,2.29158570536793));
#326=CARTESIAN_POINT('Ctrl Pts',(-2.2915857053679,22.926139187908,2.29158570536793));
#327=CARTESIAN_POINT('Ctrl Pts',(-2.2915857053679,22.926139187908,1.44527700049152E-14));
#328=CARTESIAN_POINT('Ctrl Pts',(-2.2915857053679,22.926139187908,-2.2915857053679));
#329=CARTESIAN_POINT('Ctrl Pts',(1.96542016693435E-14,22.926139187908,-2.2915857053679));
#330=CARTESIAN_POINT('Ctrl Pts',(2.29158570536794,22.926139187908,-2.2915857053679));
#331=CARTESIAN_POINT('Ctrl Pts',(2.29158570536794,22.926139187908,1.44527700049152E-14));
#332=CARTESIAN_POINT('Ctrl Pts',(2.29158570536794,22.926139187908,2.29158570536793));
#333=CARTESIAN_POINT('Ctrl Pts',(1.96542016693436E-14,22.926139187908,2.29158570536793));
#334=CARTESIAN_POINT('Ctrl Pts',(-2.34282735198134E-15,13.1398463778306,
10.333445328164));
#335=CARTESIAN_POINT('Ctrl Pts',(-10.333445328164,13.1398463778306,10.333445328164));
#336=CARTESIAN_POINT('Ctrl Pts',(-10.333445328164,13.1398463778306,3.27611043918575E-15));
#337=CARTESIAN_POINT('Ctrl Pts',(-10.333445328164,13.1398463778306,-10.333445328164));
#338=CARTESIAN_POINT('Ctrl Pts',(-2.34282735198136E-15,13.1398463778306,
-10.333445328164));
#339=CARTESIAN_POINT('Ctrl Pts',(10.333445328164,13.1398463778306,-10.333445328164));
#340=CARTESIAN_POINT('Ctrl Pts',(10.333445328164,13.1398463778306,3.27611043918568E-15));
#341=CARTESIAN_POINT('Ctrl Pts',(10.333445328164,13.1398463778305,10.333445328164));
#342=CARTESIAN_POINT('Ctrl Pts',(-2.34282735198134E-15,13.1398463778306,
10.333445328164));
#343=CARTESIAN_POINT('Ctrl Pts',(-3.08048926181777E-14,0.477313432835795,
10.0120537068456));
#344=CARTESIAN_POINT('Ctrl Pts',(-10.0120537068456,0.477313432835818,10.0120537068456));
#345=CARTESIAN_POINT('Ctrl Pts',(-10.0120537068456,0.477313432835829,-1.11854249667757E-14));
#346=CARTESIAN_POINT('Ctrl Pts',(-10.0120537068456,0.47731343283584,-10.0120537068456));
#347=CARTESIAN_POINT('Ctrl Pts',(-3.08048926181777E-14,0.477313432835818,
-10.0120537068456));
#348=CARTESIAN_POINT('Ctrl Pts',(10.0120537068456,0.477313432835795,-10.0120537068456));
#349=CARTESIAN_POINT('Ctrl Pts',(10.0120537068456,0.477313432835784,-1.11854249667757E-14));
#350=CARTESIAN_POINT('Ctrl Pts',(10.0120537068456,0.477313432835773,10.0120537068456));
#351=CARTESIAN_POINT('Ctrl Pts',(-3.08048926181777E-14,0.477313432835795,
10.0120537068456));
#352=CARTESIAN_POINT('',(2.80638309905067E-16,22.926139187908,-2.29158570536792));
#353=CARTESIAN_POINT('',(1.93735633594384E-14,22.926139187908,2.29158570536794));
#354=CARTESIAN_POINT('Origin',(0.,22.926139187908,5.09062551843531E-15));
#355=CARTESIAN_POINT('',(-3.20310155706756E-14,0.47731343283583,10.0120537068456));
#356=CARTESIAN_POINT('Origin',(-2.59294630099385E-14,1.34000000000007,-23.9769999999998));
#357=CARTESIAN_POINT('',(10.0120537068456,0.477313432835832,1.05984872619443E-16));
#358=CARTESIAN_POINT('Origin',(0.,0.477313432835832,1.05984872619443E-16));
#359=CARTESIAN_POINT('',(-10.0120537068456,0.477313432835832,-1.12013807987854E-15));
#360=CARTESIAN_POINT('Origin',(0.,0.477313432835832,1.05984872619443E-16));
#361=CARTESIAN_POINT('Origin',(0.,0.477313432835832,1.05984872619443E-16));
#362=CARTESIAN_POINT('Origin',(0.,22.926139187908,5.09062551843531E-15));
#363=CARTESIAN_POINT('Origin',(1.33226762955019E-14,20.9900000000001,-5.60884672040627E-15));
#364=CARTESIAN_POINT('',(1.33226762955019E-14,23.99,-5.42514970053417E-15));
#365=CARTESIAN_POINT('Origin',(1.33226762955019E-14,20.9900000000001,-5.60884672040627E-15));
#366=CARTESIAN_POINT('Origin',(0.,0.490000000000011,1.08801856413268E-16));
#367=CARTESIAN_POINT('',(9.51221468174493,-0.00999999999999786,-2.22044604924984E-18));
#368=CARTESIAN_POINT('',(-9.51221468174493,-0.00999999999999786,-1.16713077232939E-15));
#369=CARTESIAN_POINT('Origin',(0.,-0.00999999999999786,-2.22044604924984E-18));
#370=CARTESIAN_POINT('Origin',(0.,-0.00999999999999786,-2.22044604924984E-18));
#371=CARTESIAN_POINT('Origin',(-9.51221468174493,0.490000000000011,-1.05610846986687E-15));
#372=CARTESIAN_POINT('Origin',(0.,-0.00999999999999786,-2.22044604924984E-18));
#373=CARTESIAN_POINT('',(9.5,2.14238349283136E-15,4.75704696263648E-31));
#374=CARTESIAN_POINT('',(-9.5,2.14238349283136E-15,-1.16341445918999E-15));
#375=CARTESIAN_POINT('Origin',(0.,2.14238349283136E-15,4.75704696263648E-31));
#376=CARTESIAN_POINT('Origin',(0.,2.14238349283136E-15,4.75704696263648E-31));
#377=CARTESIAN_POINT('',(-9.5,-0.00999999999999786,-1.16563490523924E-15));
#378=CARTESIAN_POINT('',(-9.5,-0.00999999999999786,-1.16563490523924E-15));
#379=CARTESIAN_POINT('',(9.5,-0.00999999999999786,-2.22044604924984E-18));
#380=CARTESIAN_POINT('Origin',(0.,-0.00999999999999786,-2.22044604924984E-18));
#381=CARTESIAN_POINT('Origin',(0.,-0.00999999999999786,-2.22044604924984E-18));
#382=CARTESIAN_POINT('Origin',(-1.22460635382238E-15,1.0321604682062E-15,
5.));
#383=CARTESIAN_POINT('Origin',(0.,-0.00999999999999786,-2.22044604924984E-18));
#384=UNCERTAINTY_MEASURE_WITH_UNIT(LENGTH_MEASURE(0.01),#388,
'DISTANCE_ACCURACY_VALUE',
'Maximum model space distance between geometric entities at asserted c
onnectivities');
#385=UNCERTAINTY_MEASURE_WITH_UNIT(LENGTH_MEASURE(0.01),#388,
'DISTANCE_ACCURACY_VALUE',
'Maximum model space distance between geometric entities at asserted c
onnectivities');
#386=(
GEOMETRIC_REPRESENTATION_CONTEXT(3)
GLOBAL_UNCERTAINTY_ASSIGNED_CONTEXT((#384))
GLOBAL_UNIT_ASSIGNED_CONTEXT((#388,#390,#391))
REPRESENTATION_CONTEXT('','3D')
);
#387=(
GEOMETRIC_REPRESENTATION_CONTEXT(3)
GLOBAL_UNCERTAINTY_ASSIGNED_CONTEXT((#385))
GLOBAL_UNIT_ASSIGNED_CONTEXT((#388,#390,#391))
REPRESENTATION_CONTEXT('','3D')
);
#388=(
LENGTH_UNIT()
NAMED_UNIT(*)
SI_UNIT(.MILLI.,.METRE.)
);
#389=(
LENGTH_UNIT()
NAMED_UNIT(*)
SI_UNIT(.CENTI.,.METRE.)
);
#390=(
NAMED_UNIT(*)
PLANE_ANGLE_UNIT()
SI_UNIT($,.RADIAN.)
);
#391=(
NAMED_UNIT(*)
SI_UNIT($,.STERADIAN.)
SOLID_ANGLE_UNIT()
);
#392=SHAPE_DEFINITION_REPRESENTATION(#393,#394);
#393=PRODUCT_DEFINITION_SHAPE('',$,#396);
#394=SHAPE_REPRESENTATION('',(#208),#386);
#395=PRODUCT_DEFINITION_CONTEXT('part definition',#400,'design');
#396=PRODUCT_DEFINITION('408510165','408510165 Anschlagpuffer 20x24',#397,
#395);
#397=PRODUCT_DEFINITION_FORMATION('',$,#402);
#398=PRODUCT_RELATED_PRODUCT_CATEGORY('408510165 Anschlagpuffer 20x24',
'408510165 Anschlagpuffer 20x24',(#402));
#399=APPLICATION_PROTOCOL_DEFINITION('international standard',
'automotive_design',2009,#400);
#400=APPLICATION_CONTEXT(
'Core Data for Automotive Mechanical Design Process');
#401=PRODUCT_CONTEXT('part definition',#400,'mechanical');
#402=PRODUCT('408510165','408510165 Anschlagpuffer 20x24',
'Anschlagpuffer 20x24',(#401));
#403=PRESENTATION_STYLE_ASSIGNMENT((#406));
#404=PRESENTATION_STYLE_ASSIGNMENT((#407));
#405=PRESENTATION_STYLE_ASSIGNMENT((#408));
#406=SURFACE_STYLE_USAGE(.BOTH.,#415);
#407=SURFACE_STYLE_USAGE(.BOTH.,#416);
#408=SURFACE_STYLE_USAGE(.BOTH.,#417);
#409=SURFACE_STYLE_RENDERING_WITH_PROPERTIES($,#427,(#412));
#410=SURFACE_STYLE_RENDERING_WITH_PROPERTIES($,#428,(#413));
#411=SURFACE_STYLE_RENDERING_WITH_PROPERTIES($,#429,(#414));
#412=SURFACE_STYLE_TRANSPARENT(1.);
#413=SURFACE_STYLE_TRANSPARENT(1.);
#414=SURFACE_STYLE_TRANSPARENT(1.);
#415=SURFACE_SIDE_STYLE('',(#418,#409));
#416=SURFACE_SIDE_STYLE('',(#419,#410));
#417=SURFACE_SIDE_STYLE('',(#420,#411));
#418=SURFACE_STYLE_FILL_AREA(#421);
#419=SURFACE_STYLE_FILL_AREA(#422);
#420=SURFACE_STYLE_FILL_AREA(#423);
#421=FILL_AREA_STYLE('',(#424));
#422=FILL_AREA_STYLE('',(#425));
#423=FILL_AREA_STYLE('',(#426));
#424=FILL_AREA_STYLE_COLOUR('',#427);
#425=FILL_AREA_STYLE_COLOUR('',#428);
#426=FILL_AREA_STYLE_COLOUR('',#429);
#427=COLOUR_RGB('',0.749019607843137,0.749019607843137,0.749019607843137);
#428=COLOUR_RGB('',0.87843137254902,0.874509803921569,0.858823529411765);
#429=COLOUR_RGB('',0.,0.,0.);
ENDSEC;
END-ISO-10303-21;
